ISO-10303-21;
HEADER;
FILE_DESCRIPTION (( 'STEP AP203' ),
    '1' );
FILE_NAME ('Q-QZWP-R4-12.7-248-M.STEP',
    '2020-12-23T01:23:26',
    ( '' ),
    ( '' ),
    'SwSTEP 2.0',
    'SolidWorks 2020',
    '' );
FILE_SCHEMA (( 'CONFIG_CONTROL_DESIGN' ));
ENDSEC;

DATA;
#1 = DIRECTION ( 'NONE',  ( 0.000000000000000000, 0.000000000000000000, -1.000000000000000000 ) ) ;
#2 = PERSON_AND_ORGANIZATION ( #174, #46 ) ;
#3 = AXIS2_PLACEMENT_3D ( 'NONE', #123, #78, #224 ) ;
#4 = CC_DESIGN_DATE_AND_TIME_ASSIGNMENT ( #251, #86, ( #281 ) ) ;
#5 = VECTOR ( 'NONE', #93, 1000.000000000000000 ) ;
#6 = APPROVAL ( #161, 'UNSPECIFIED' ) ;
#7 = ORIENTED_EDGE ( 'NONE', *, *, #329, .T. ) ;
#8 = APPROVAL_ROLE ( '' ) ;
#9 = VERTEX_POINT ( 'NONE', #61 ) ;
#10 = APPROVAL_DATE_TIME ( #271, #20 ) ;
#11 = CARTESIAN_POINT ( 'NONE',  ( -3.000000000000000000, 6.349999999999999645, 0.000000000000000000 ) ) ;
#12 = CARTESIAN_POINT ( 'NONE',  ( -1.614212418857619014, 0.000000000000000000, 6.349999999999999645 ) ) ;
#13 = DATE_AND_TIME ( #26, #182 ) ;
#14 = CYLINDRICAL_SURFACE ( 'NONE', #325, 6.349999999999999645 ) ;
#15 = EDGE_CURVE ( 'NONE', #9, #307, #197, .T. ) ;
#16 = DIRECTION ( 'NONE',  ( 0.000000000000000000, 0.000000000000000000, 1.000000000000000000 ) ) ;
#17 = VERTEX_POINT ( 'NONE', #116 ) ;
#18 = FACE_BOUND ( 'NONE', #294, .T. ) ;
#19 = DIRECTION ( 'NONE',  ( -1.000000000000000000, -0.000000000000000000, -0.000000000000000000 ) ) ;
#20 = APPROVAL ( #185, 'UNSPECIFIED' ) ;
#21 = CIRCLE ( 'NONE', #87, 6.349999999999999645 ) ;
#22 = CARTESIAN_POINT ( 'NONE',  ( -2.999999999999999556, 0.000000000000000000, 6.349999999999999645 ) ) ;
#23 = ORIENTED_EDGE ( 'NONE', *, *, #316, .T. ) ;
#24 = DIRECTION ( 'NONE',  ( 0.000000000000000000, 0.000000000000000000, 1.000000000000000000 ) ) ;
#25 = EDGE_LOOP ( 'NONE', ( #91, #288, #132, #124 ) ) ;
#26 = CALENDAR_DATE ( 2020, 23, 12 ) ;
#27 =( GEOMETRIC_REPRESENTATION_CONTEXT ( 3 ) GLOBAL_UNCERTAINTY_ASSIGNED_CONTEXT ( ( #138 ) ) GLOBAL_UNIT_ASSIGNED_CONTEXT ( ( #314, #133, #203 ) ) REPRESENTATION_CONTEXT ( 'NONE', 'WORKASPACE' ) );
#28 = PRODUCT_RELATED_PRODUCT_CATEGORY ( 'detail', '', ( #94 ) ) ;
#29 = EDGE_LOOP ( 'NONE', ( #175, #76, #130, #122 ) ) ;
#30 = ADVANCED_FACE ( 'NONE', ( #280, #148 ), #152, .F. ) ;
#31 = CALENDAR_DATE ( 2020, 23, 12 ) ;
#32 = CIRCLE ( 'NONE', #159, 12.69999999999999929 ) ;
#33 = AXIS2_PLACEMENT_3D ( 'NONE', #283, #179, #24 ) ;
#34 = PERSON_AND_ORGANIZATION_ROLE ( 'creator' ) ;
#35 = ORIENTED_EDGE ( 'NONE', *, *, #127, .F. ) ;
#36 = ORIENTED_EDGE ( 'NONE', *, *, #167, .F. ) ;
#37 = CARTESIAN_POINT ( 'NONE',  ( -1.614212418857619014, 1.555301434917138433E-15, -12.69999999999999929 ) ) ;
#38 = ADVANCED_FACE ( 'NONE', ( #47 ), #328, .F. ) ;
#39 = EDGE_LOOP ( 'NONE', ( #186, #273, #7, #35 ) ) ;
#40 = CLOSED_SHELL ( 'NONE', ( #184, #49, #293, #38, #101, #183, #30, #229, #205, #311 ) ) ;
#41 = LOCAL_TIME ( 9, 23, 26.00000000000000000, #141 ) ;
#42 = PERSON_AND_ORGANIZATION ( #174, #46 ) ;
#43 = DIRECTION ( 'NONE',  ( -1.000000000000000000, -0.000000000000000000, -0.000000000000000000 ) ) ;
#44 = DIRECTION ( 'NONE',  ( 0.000000000000000000, 0.000000000000000000, 1.000000000000000000 ) ) ;
#45 = DIRECTION ( 'NONE',  ( -1.000000000000000000, -0.000000000000000000, -0.000000000000000000 ) ) ;
#46 = ORGANIZATION ( 'UNSPECIFIED', 'UNSPECIFIED', '' ) ;
#47 = FACE_OUTER_BOUND ( 'NONE', #231, .T. ) ;
#48 = DIRECTION ( 'NONE',  ( -0.000000000000000000, 0.000000000000000000, 1.000000000000000000 ) ) ;
#49 = ADVANCED_FACE ( 'NONE', ( #168 ), #14, .F. ) ;
#50 = LINE ( 'NONE', #131, #210 ) ;
#51 = CC_DESIGN_PERSON_AND_ORGANIZATION_ASSIGNMENT ( #144, #242, ( #228 ) ) ;
#52 = PERSON_AND_ORGANIZATION_ROLE ( 'design_owner' ) ;
#53 = CIRCLE ( 'NONE', #303, 6.349999999999999645 ) ;
#54 = FACE_OUTER_BOUND ( 'NONE', #55, .T. ) ;
#55 = EDGE_LOOP ( 'NONE', ( #113, #106 ) ) ;
#56 = EDGE_CURVE ( 'NONE', #59, #276, #21, .T. ) ;
#57 = CIRCLE ( 'NONE', #215, 6.349999999999999645 ) ;
#58 = AXIS2_PLACEMENT_3D ( 'NONE', #119, #258, #68 ) ;
#59 = VERTEX_POINT ( 'NONE', #223 ) ;
#60 = PERSON_AND_ORGANIZATION ( #174, #46 ) ;
#61 = CARTESIAN_POINT ( 'NONE',  ( 3.000000000000000888, 0.000000000000000000, 6.349999999999999645 ) ) ;
#62 = DIRECTION ( 'NONE',  ( 0.000000000000000000, 0.000000000000000000, 1.000000000000000000 ) ) ;
#63 = ORIENTED_EDGE ( 'NONE', *, *, #169, .T. ) ;
#64 = DIRECTION ( 'NONE',  ( 0.000000000000000000, 0.000000000000000000, 1.000000000000000000 ) ) ;
#65 = AXIS2_PLACEMENT_3D ( 'NONE', #11, #323, #304 ) ;
#66 = LOCAL_TIME ( 9, 23, 26.00000000000000000, #89 ) ;
#67 = LOCAL_TIME ( 9, 23, 26.00000000000000000, #85 ) ;
#68 = DIRECTION ( 'NONE',  ( -0.000000000000000000, 0.000000000000000000, 1.000000000000000000 ) ) ;
#69 = EDGE_CURVE ( 'NONE', #195, #265, #302, .T. ) ;
#70 = FACE_OUTER_BOUND ( 'NONE', #25, .T. ) ;
#71 = DIRECTION ( 'NONE',  ( -1.000000000000000000, -0.000000000000000000, -0.000000000000000000 ) ) ;
#72 = CARTESIAN_POINT ( 'NONE',  ( -1.614212418857619014, 0.000000000000000000, 0.000000000000000000 ) ) ;
#73 = FACE_OUTER_BOUND ( 'NONE', #297, .T. ) ;
#74 = DIRECTION ( 'NONE',  ( -1.000000000000000000, -0.000000000000000000, -0.000000000000000000 ) ) ;
#75 = PLANE ( 'NONE',  #149 ) ;
#76 = ORIENTED_EDGE ( 'NONE', *, *, #295, .T. ) ;
#77 = MECHANICAL_CONTEXT ( 'NONE', #268, 'mechanical' ) ;
#78 = DIRECTION ( 'NONE',  ( -1.000000000000000000, -0.000000000000000000, -0.000000000000000000 ) ) ;
#79 = EDGE_CURVE ( 'NONE', #284, #17, #57, .T. ) ;
#80 = COORDINATED_UNIVERSAL_TIME_OFFSET ( 8, 0, .AHEAD. ) ;
#81 = CARTESIAN_POINT ( 'NONE',  ( 1.500000000000000888, 0.000000000000000000, 0.000000000000000000 ) ) ;
#82 = AXIS2_PLACEMENT_3D ( 'NONE', #163, #248, #44 ) ;
#83 = APPROVAL_PERSON_ORGANIZATION ( #320, #20, #296 ) ;
#84 = PRODUCT_DEFINITION_SHAPE ( 'NONE', 'NONE',  #243 ) ;
#85 = COORDINATED_UNIVERSAL_TIME_OFFSET ( 8, 0, .AHEAD. ) ;
#86 = DATE_TIME_ROLE ( 'classification_date' ) ;
#87 = AXIS2_PLACEMENT_3D ( 'NONE', #147, #71, #95 ) ;
#88 = CC_DESIGN_PERSON_AND_ORGANIZATION_ASSIGNMENT ( #170, #225, ( #243 ) ) ;
#89 = COORDINATED_UNIVERSAL_TIME_OFFSET ( 8, 0, .AHEAD. ) ;
#90 = LINE ( 'NONE', #188, #262 ) ;
#91 = ORIENTED_EDGE ( 'NONE', *, *, #180, .T. ) ;
#92 = SECURITY_CLASSIFICATION_LEVEL ( 'unclassified' ) ;
#93 = DIRECTION ( 'NONE',  ( -1.000000000000000000, -0.000000000000000000, -0.000000000000000000 ) ) ;
#94 = PRODUCT ( 'Q-QZWP-R4-12.7-248-M', 'Q-QZWP-R4-12.7-248-M', '', ( #77 ) ) ;
#95 = DIRECTION ( 'NONE',  ( 0.000000000000000000, 0.000000000000000000, 1.000000000000000000 ) ) ;
#96 = CC_DESIGN_APPROVAL ( #282, ( #243 ) ) ;
#97 = DIRECTION ( 'NONE',  ( -1.000000000000000000, -0.000000000000000000, -0.000000000000000000 ) ) ;
#98 = ORIENTED_EDGE ( 'NONE', *, *, #167, .T. ) ;
#99 = CARTESIAN_POINT ( 'NONE',  ( -3.000000000000000000, 1.555301434917138433E-15, -12.69999999999999929 ) ) ;
#100 = AXIS2_PLACEMENT_3D ( 'NONE', #145, #190, #301 ) ;
#101 = ADVANCED_FACE ( 'NONE', ( #194 ), #321, .F. ) ;
#102 = DIRECTION ( 'NONE',  ( 0.000000000000000000, 0.000000000000000000, 1.000000000000000000 ) ) ;
#103 = CARTESIAN_POINT ( 'NONE',  ( -2.999999999999999556, 0.000000000000000000, 0.000000000000000000 ) ) ;
#104 = EDGE_CURVE ( 'NONE', #307, #9, #245, .T. ) ;
#105 = CARTESIAN_POINT ( 'NONE',  ( -1.500000000000000444, 0.000000000000000000, 0.000000000000000000 ) ) ;
#106 = ORIENTED_EDGE ( 'NONE', *, *, #295, .F. ) ;
#107 = DIRECTION ( 'NONE',  ( -1.000000000000000000, -0.000000000000000000, -0.000000000000000000 ) ) ;
#108 = LINE ( 'NONE', #178, #126 ) ;
#109 = APPROVAL_STATUS ( 'not_yet_approved' ) ;
#110 = ORIENTED_EDGE ( 'NONE', *, *, #139, .T. ) ;
#111 = CC_DESIGN_APPROVAL ( #20, ( #281 ) ) ;
#112 = CC_DESIGN_DATE_AND_TIME_ASSIGNMENT ( #211, #274, ( #243 ) ) ;
#113 = ORIENTED_EDGE ( 'NONE', *, *, #180, .F. ) ;
#114 = PERSON_AND_ORGANIZATION ( #174, #46 ) ;
#115 = AXIS2_PLACEMENT_3D ( 'NONE', #166, #43, #62 ) ;
#116 = CARTESIAN_POINT ( 'NONE',  ( -1.500000000000000444, 0.000000000000000000, 6.349999999999999645 ) ) ;
#117 = ORIENTED_EDGE ( 'NONE', *, *, #192, .F. ) ;
#118 = ADVANCED_BREP_SHAPE_REPRESENTATION ( 'Q-QZWP-R4-12.7-248-M', ( #222, #332 ), #27 ) ;
#119 = CARTESIAN_POINT ( 'NONE',  ( 1.500000000000000444, 6.349999999999999645, 0.000000000000000000 ) ) ;
#120 = DIRECTION ( 'NONE',  ( 0.000000000000000000, 0.000000000000000000, 1.000000000000000000 ) ) ;
#121 = DIRECTION ( 'NONE',  ( 0.000000000000000000, 0.000000000000000000, -1.000000000000000000 ) ) ;
#122 = ORIENTED_EDGE ( 'NONE', *, *, #139, .F. ) ;
#123 = CARTESIAN_POINT ( 'NONE',  ( -1.614212418857619014, 0.000000000000000000, 0.000000000000000000 ) ) ;
#124 = ORIENTED_EDGE ( 'NONE', *, *, #214, .F. ) ;
#125 = DIRECTION ( 'NONE',  ( 0.000000000000000000, 0.000000000000000000, 1.000000000000000000 ) ) ;
#126 = VECTOR ( 'NONE', #200, 1000.000000000000000 ) ;
#127 = EDGE_CURVE ( 'NONE', #17, #241, #90, .T. ) ;
#128 = CARTESIAN_POINT ( 'NONE',  ( 0.000000000000000000, 0.000000000000000000, 0.000000000000000000 ) ) ;
#129 = PLANE ( 'NONE',  #134 ) ;
#130 = ORIENTED_EDGE ( 'NONE', *, *, #214, .T. ) ;
#131 = CARTESIAN_POINT ( 'NONE',  ( -1.614212418857619014, 0.000000000000000000, 12.69999999999999929 ) ) ;
#132 = ORIENTED_EDGE ( 'NONE', *, *, #69, .F. ) ;
#133 =( NAMED_UNIT ( * ) PLANE_ANGLE_UNIT ( ) SI_UNIT ( $, .RADIAN. ) );
#134 = AXIS2_PLACEMENT_3D ( 'NONE', #230, #310, #287 ) ;
#135 = EDGE_CURVE ( 'NONE', #249, #265, #221, .T. ) ;
#136 = ORIENTED_EDGE ( 'NONE', *, *, #127, .T. ) ;
#137 = ORIENTED_EDGE ( 'NONE', *, *, #79, .F. ) ;
#138 = UNCERTAINTY_MEASURE_WITH_UNIT (LENGTH_MEASURE( 1.000000000000000082E-05 ), #314, 'distance_accuracy_value', 'NONE');
#139 = EDGE_CURVE ( 'NONE', #265, #195, #269, .T. ) ;
#140 = AXIS2_PLACEMENT_3D ( 'NONE', #105, #263, #1 ) ;
#141 = COORDINATED_UNIVERSAL_TIME_OFFSET ( 8, 0, .AHEAD. ) ;
#142 = DIRECTION ( 'NONE',  ( 0.000000000000000000, 0.000000000000000000, 1.000000000000000000 ) ) ;
#143 = DIRECTION ( 'NONE',  ( -1.000000000000000000, -0.000000000000000000, -0.000000000000000000 ) ) ;
#144 = PERSON_AND_ORGANIZATION ( #174, #46 ) ;
#145 = CARTESIAN_POINT ( 'NONE',  ( -2.999999999999999556, 0.000000000000000000, 0.000000000000000000 ) ) ;
#146 = AXIS2_PLACEMENT_3D ( 'NONE', #201, #226, #102 ) ;
#147 = CARTESIAN_POINT ( 'NONE',  ( 1.500000000000000888, 0.000000000000000000, 0.000000000000000000 ) ) ;
#148 = FACE_OUTER_BOUND ( 'NONE', #237, .T. ) ;
#149 = AXIS2_PLACEMENT_3D ( 'NONE', #176, #333, #48 ) ;
#150 = EDGE_LOOP ( 'NONE', ( #300, #199, #136, #98 ) ) ;
#151 = CC_DESIGN_PERSON_AND_ORGANIZATION_ASSIGNMENT ( #114, #212, ( #281 ) ) ;
#152 = PLANE ( 'NONE',  #65 ) ;
#153 = FACE_OUTER_BOUND ( 'NONE', #29, .T. ) ;
#154 = CARTESIAN_POINT ( 'NONE',  ( -3.000000000000000000, 0.000000000000000000, 12.69999999999999929 ) ) ;
#155 = DESIGN_CONTEXT ( 'detailed design', #254, 'design' ) ;
#156 = CYLINDRICAL_SURFACE ( 'NONE', #3, 12.69999999999999929 ) ;
#157 = ORIENTED_EDGE ( 'NONE', *, *, #169, .F. ) ;
#158 = ORIENTED_EDGE ( 'NONE', *, *, #104, .T. ) ;
#159 = AXIS2_PLACEMENT_3D ( 'NONE', #255, #327, #120 ) ;
#160 = ORIENTED_EDGE ( 'NONE', *, *, #56, .T. ) ;
#161 = APPROVAL_STATUS ( 'not_yet_approved' ) ;
#162 = ORIENTED_EDGE ( 'NONE', *, *, #104, .F. ) ;
#163 = CARTESIAN_POINT ( 'NONE',  ( -1.614212418857619014, 0.000000000000000000, 0.000000000000000000 ) ) ;
#164 = ORIENTED_EDGE ( 'NONE', *, *, #316, .F. ) ;
#165 = AXIS2_PLACEMENT_3D ( 'NONE', #318, #143, #142 ) ;
#166 = CARTESIAN_POINT ( 'NONE',  ( -3.000000000000000000, 0.000000000000000000, 0.000000000000000000 ) ) ;
#167 = EDGE_CURVE ( 'NONE', #241, #270, #312, .T. ) ;
#168 = FACE_OUTER_BOUND ( 'NONE', #39, .T. ) ;
#169 = EDGE_CURVE ( 'NONE', #9, #59, #278, .T. ) ;
#170 = PERSON_AND_ORGANIZATION ( #174, #46 ) ;
#171 = DIRECTION ( 'NONE',  ( -1.000000000000000000, -0.000000000000000000, -0.000000000000000000 ) ) ;
#172 = VECTOR ( 'NONE', #313, 1000.000000000000000 ) ;
#173 = CARTESIAN_POINT ( 'NONE',  ( 3.000000000000000000, 0.000000000000000000, 12.69999999999999929 ) ) ;
#174 = PERSON ( 'UNSPECIFIED', 'UNSPECIFIED', 'UNSPECIFIED', ('UNSPECIFIED'), ('UNSPECIFIED'), ('UNSPECIFIED') ) ;
#175 = ORIENTED_EDGE ( 'NONE', *, *, #135, .F. ) ;
#176 = CARTESIAN_POINT ( 'NONE',  ( 3.000000000000000000, 12.69999999999999929, 0.000000000000000000 ) ) ;
#177 = DIRECTION ( 'NONE',  ( 0.000000000000000000, 0.000000000000000000, 1.000000000000000000 ) ) ;
#178 = CARTESIAN_POINT ( 'NONE',  ( -1.614212418857619014, 7.776507174585692163E-16, -6.349999999999999645 ) ) ;
#179 = DIRECTION ( 'NONE',  ( -1.000000000000000000, -0.000000000000000000, -0.000000000000000000 ) ) ;
#180 = EDGE_CURVE ( 'NONE', #235, #249, #32, .T. ) ;
#181 = DIRECTION ( 'NONE',  ( 1.000000000000000000, 0.000000000000000000, 0.000000000000000000 ) ) ;
#182 = LOCAL_TIME ( 9, 23, 26.00000000000000000, #80 ) ;
#183 = ADVANCED_FACE ( 'NONE', ( #220 ), #191, .F. ) ;
#184 = ADVANCED_FACE ( 'NONE', ( #70 ), #335, .T. ) ;
#185 = APPROVAL_STATUS ( 'not_yet_approved' ) ;
#186 = ORIENTED_EDGE ( 'NONE', *, *, #234, .T. ) ;
#187 = COORDINATED_UNIVERSAL_TIME_OFFSET ( 8, 0, .AHEAD. ) ;
#188 = CARTESIAN_POINT ( 'NONE',  ( -1.614212418857619014, 0.000000000000000000, 6.349999999999999645 ) ) ;
#189 = EDGE_LOOP ( 'NONE', ( #117, #322, #63, #160 ) ) ;
#190 = DIRECTION ( 'NONE',  ( -1.000000000000000000, -0.000000000000000000, -0.000000000000000000 ) ) ;
#191 = CYLINDRICAL_SURFACE ( 'NONE', #246, 6.349999999999999645 ) ;
#192 = EDGE_CURVE ( 'NONE', #307, #276, #267, .T. ) ;
#193 = CARTESIAN_POINT ( 'NONE',  ( -1.500000000000000444, 0.000000000000000000, 0.000000000000000000 ) ) ;
#194 = FACE_OUTER_BOUND ( 'NONE', #189, .T. ) ;
#195 = VERTEX_POINT ( 'NONE', #154 ) ;
#196 = CARTESIAN_POINT ( 'NONE',  ( -1.500000000000000444, 7.776507174585692163E-16, -6.349999999999999645 ) ) ;
#197 = CIRCLE ( 'NONE', #165, 6.349999999999999645 ) ;
#198 = CIRCLE ( 'NONE', #315, 6.349999999999999645 ) ;
#199 = ORIENTED_EDGE ( 'NONE', *, *, #79, .T. ) ;
#200 = DIRECTION ( 'NONE',  ( -1.000000000000000000, -0.000000000000000000, -0.000000000000000000 ) ) ;
#201 = CARTESIAN_POINT ( 'NONE',  ( 3.000000000000000000, 0.000000000000000000, 0.000000000000000000 ) ) ;
#202 = ORIENTED_EDGE ( 'NONE', *, *, #329, .F. ) ;
#203 =( NAMED_UNIT ( * ) SI_UNIT ( $, .STERADIAN. ) SOLID_ANGLE_UNIT ( ) );
#204 = CARTESIAN_POINT ( 'NONE',  ( -1.614212418857619014, 7.776507174585692163E-16, -6.349999999999999645 ) ) ;
#205 = ADVANCED_FACE ( 'NONE', ( #54, #18 ), #75, .F. ) ;
#206 = ORIENTED_EDGE ( 'NONE', *, *, #56, .F. ) ;
#207 = APPROVAL_PERSON_ORGANIZATION ( #60, #6, #8 ) ;
#208 = APPROVAL_ROLE ( '' ) ;
#209 = CC_DESIGN_PERSON_AND_ORGANIZATION_ASSIGNMENT ( #42, #34, ( #228 ) ) ;
#210 = VECTOR ( 'NONE', #232, 1000.000000000000000 ) ;
#211 = DATE_AND_TIME ( #317, #319 ) ;
#212 = PERSON_AND_ORGANIZATION_ROLE ( 'classification_officer' ) ;
#213 = ORIENTED_EDGE ( 'NONE', *, *, #69, .T. ) ;
#214 = EDGE_CURVE ( 'NONE', #235, #195, #50, .T. ) ;
#215 = AXIS2_PLACEMENT_3D ( 'NONE', #193, #324, #121 ) ;
#216 = CC_DESIGN_SECURITY_CLASSIFICATION ( #281, ( #228 ) ) ;
#217 = CARTESIAN_POINT ( 'NONE',  ( -3.000000000000000000, 0.000000000000000000, 0.000000000000000000 ) ) ;
#218 = EDGE_LOOP ( 'NONE', ( #162, #259, #23, #157 ) ) ;
#219 = CARTESIAN_POINT ( 'NONE',  ( -1.614212418857619014, 0.000000000000000000, 0.000000000000000000 ) ) ;
#220 = FACE_OUTER_BOUND ( 'NONE', #150, .T. ) ;
#221 = LINE ( 'NONE', #37, #5 ) ;
#222 = MANIFOLD_SOLID_BREP ( 'Ðý×', #40 ) ;
#223 = CARTESIAN_POINT ( 'NONE',  ( 1.500000000000000888, 0.000000000000000000, 6.349999999999999645 ) ) ;
#224 = DIRECTION ( 'NONE',  ( 0.000000000000000000, 0.000000000000000000, 1.000000000000000000 ) ) ;
#225 = PERSON_AND_ORGANIZATION_ROLE ( 'creator' ) ;
#226 = DIRECTION ( 'NONE',  ( -1.000000000000000000, -0.000000000000000000, -0.000000000000000000 ) ) ;
#227 = AXIS2_PLACEMENT_3D ( 'NONE', #217, #171, #64 ) ;
#228 = PRODUCT_DEFINITION_FORMATION_WITH_SPECIFIED_SOURCE ( 'ANY', '', #94, .NOT_KNOWN. ) ;
#229 = ADVANCED_FACE ( 'NONE', ( #153 ), #156, .T. ) ;
#230 = CARTESIAN_POINT ( 'NONE',  ( -1.500000000000000444, 6.349999999999999645, 0.000000000000000000 ) ) ;
#231 = EDGE_LOOP ( 'NONE', ( #206, #164 ) ) ;
#232 = DIRECTION ( 'NONE',  ( -1.000000000000000000, -0.000000000000000000, -0.000000000000000000 ) ) ;
#233 = PERSON_AND_ORGANIZATION ( #174, #46 ) ;
#234 = EDGE_CURVE ( 'NONE', #17, #284, #264, .T. ) ;
#235 = VERTEX_POINT ( 'NONE', #173 ) ;
#236 = APPROVAL_PERSON_ORGANIZATION ( #2, #282, #208 ) ;
#237 = EDGE_LOOP ( 'NONE', ( #213, #110 ) ) ;
#238 = AXIS2_PLACEMENT_3D ( 'NONE', #306, #252, #275 ) ;
#239 = APPROVAL_DATE_TIME ( #247, #6 ) ;
#240 = CALENDAR_DATE ( 2020, 23, 12 ) ;
#241 = VERTEX_POINT ( 'NONE', #22 ) ;
#242 = PERSON_AND_ORGANIZATION_ROLE ( 'design_supplier' ) ;
#243 = PRODUCT_DEFINITION ( 'UNKNOWN', '', #228, #155 ) ;
#244 = EDGE_LOOP ( 'NONE', ( #36, #202 ) ) ;
#245 = CIRCLE ( 'NONE', #238, 6.349999999999999645 ) ;
#246 = AXIS2_PLACEMENT_3D ( 'NONE', #279, #97, #305 ) ;
#247 = DATE_AND_TIME ( #272, #67 ) ;
#248 = DIRECTION ( 'NONE',  ( -1.000000000000000000, -0.000000000000000000, -0.000000000000000000 ) ) ;
#249 = VERTEX_POINT ( 'NONE', #331 ) ;
#250 = EDGE_CURVE ( 'NONE', #284, #270, #108, .T. ) ;
#251 = DATE_AND_TIME ( #240, #41 ) ;
#252 = DIRECTION ( 'NONE',  ( -1.000000000000000000, -0.000000000000000000, -0.000000000000000000 ) ) ;
#253 = CC_DESIGN_PERSON_AND_ORGANIZATION_ASSIGNMENT ( #233, #52, ( #94 ) ) ;
#254 = APPLICATION_CONTEXT ( 'configuration controlled 3d designs of mechanical parts and assemblies' ) ;
#255 = CARTESIAN_POINT ( 'NONE',  ( 3.000000000000000000, 0.000000000000000000, 0.000000000000000000 ) ) ;
#256 = APPROVAL_DATE_TIME ( #13, #282 ) ;
#257 = VECTOR ( 'NONE', #45, 1000.000000000000000 ) ;
#258 = DIRECTION ( 'NONE',  ( -1.000000000000000000, 0.000000000000000000, -0.000000000000000000 ) ) ;
#259 = ORIENTED_EDGE ( 'NONE', *, *, #192, .T. ) ;
#260 = DIRECTION ( 'NONE',  ( -1.000000000000000000, -0.000000000000000000, -0.000000000000000000 ) ) ;
#261 = CARTESIAN_POINT ( 'NONE',  ( -2.999999999999999556, 7.776507174585692163E-16, -6.349999999999999645 ) ) ;
#262 = VECTOR ( 'NONE', #299, 1000.000000000000000 ) ;
#263 = DIRECTION ( 'NONE',  ( 1.000000000000000000, 0.000000000000000000, 0.000000000000000000 ) ) ;
#264 = CIRCLE ( 'NONE', #140, 6.349999999999999645 ) ;
#265 = VERTEX_POINT ( 'NONE', #99 ) ;
#266 = DIRECTION ( 'NONE',  ( 0.000000000000000000, 0.000000000000000000, 1.000000000000000000 ) ) ;
#267 = LINE ( 'NONE', #204, #172 ) ;
#268 = APPLICATION_CONTEXT ( 'configuration controlled 3d designs of mechanical parts and assemblies' ) ;
#269 = CIRCLE ( 'NONE', #115, 12.69999999999999929 ) ;
#270 = VERTEX_POINT ( 'NONE', #261 ) ;
#271 = DATE_AND_TIME ( #31, #66 ) ;
#272 = CALENDAR_DATE ( 2020, 23, 12 ) ;
#273 = ORIENTED_EDGE ( 'NONE', *, *, #250, .T. ) ;
#274 = DATE_TIME_ROLE ( 'creation_date' ) ;
#275 = DIRECTION ( 'NONE',  ( 0.000000000000000000, 0.000000000000000000, 1.000000000000000000 ) ) ;
#276 = VERTEX_POINT ( 'NONE', #290 ) ;
#277 = CC_DESIGN_APPROVAL ( #6, ( #228 ) ) ;
#278 = LINE ( 'NONE', #12, #257 ) ;
#279 = CARTESIAN_POINT ( 'NONE',  ( -1.614212418857619014, 0.000000000000000000, 0.000000000000000000 ) ) ;
#280 = FACE_BOUND ( 'NONE', #244, .T. ) ;
#281 = SECURITY_CLASSIFICATION ( '', '', #92 ) ;
#282 = APPROVAL ( #109, 'UNSPECIFIED' ) ;
#283 = CARTESIAN_POINT ( 'NONE',  ( -1.614212418857619014, 0.000000000000000000, 0.000000000000000000 ) ) ;
#284 = VERTEX_POINT ( 'NONE', #196 ) ;
#285 = FACE_OUTER_BOUND ( 'NONE', #218, .T. ) ;
#286 = DIRECTION ( 'NONE',  ( 0.000000000000000000, 0.000000000000000000, 1.000000000000000000 ) ) ;
#287 = DIRECTION ( 'NONE',  ( 0.000000000000000000, 0.000000000000000000, -1.000000000000000000 ) ) ;
#288 = ORIENTED_EDGE ( 'NONE', *, *, #135, .T. ) ;
#289 = APPLICATION_PROTOCOL_DEFINITION ( 'international standard', 'config_control_design', 1994, #254 ) ;
#290 = CARTESIAN_POINT ( 'NONE',  ( 1.500000000000000888, 7.776507174585692163E-16, -6.349999999999999645 ) ) ;
#291 = AXIS2_PLACEMENT_3D ( 'NONE', #72, #19, #125 ) ;
#292 = ORIENTED_EDGE ( 'NONE', *, *, #15, .T. ) ;
#293 = ADVANCED_FACE ( 'NONE', ( #285 ), #308, .F. ) ;
#294 = EDGE_LOOP ( 'NONE', ( #292, #158 ) ) ;
#295 = EDGE_CURVE ( 'NONE', #249, #235, #326, .T. ) ;
#296 = APPROVAL_ROLE ( '' ) ;
#297 = EDGE_LOOP ( 'NONE', ( #330, #137 ) ) ;
#298 = SHAPE_DEFINITION_REPRESENTATION ( #84, #118 ) ;
#299 = DIRECTION ( 'NONE',  ( -1.000000000000000000, -0.000000000000000000, -0.000000000000000000 ) ) ;
#300 = ORIENTED_EDGE ( 'NONE', *, *, #250, .F. ) ;
#301 = DIRECTION ( 'NONE',  ( 0.000000000000000000, 0.000000000000000000, 1.000000000000000000 ) ) ;
#302 = CIRCLE ( 'NONE', #227, 12.69999999999999929 ) ;
#303 = AXIS2_PLACEMENT_3D ( 'NONE', #103, #107, #177 ) ;
#304 = DIRECTION ( 'NONE',  ( 0.000000000000000000, 0.000000000000000000, -1.000000000000000000 ) ) ;
#305 = DIRECTION ( 'NONE',  ( 0.000000000000000000, 0.000000000000000000, 1.000000000000000000 ) ) ;
#306 = CARTESIAN_POINT ( 'NONE',  ( 3.000000000000000888, 0.000000000000000000, 0.000000000000000000 ) ) ;
#307 = VERTEX_POINT ( 'NONE', #309 ) ;
#308 = CYLINDRICAL_SURFACE ( 'NONE', #291, 6.349999999999999645 ) ;
#309 = CARTESIAN_POINT ( 'NONE',  ( 3.000000000000000888, 7.776507174585692163E-16, -6.349999999999999645 ) ) ;
#310 = DIRECTION ( 'NONE',  ( 1.000000000000000000, 0.000000000000000000, 0.000000000000000000 ) ) ;
#311 = ADVANCED_FACE ( 'NONE', ( #73 ), #129, .F. ) ;
#312 = CIRCLE ( 'NONE', #100, 6.349999999999999645 ) ;
#313 = DIRECTION ( 'NONE',  ( -1.000000000000000000, -0.000000000000000000, -0.000000000000000000 ) ) ;
#314 =( LENGTH_UNIT ( ) NAMED_UNIT ( * ) SI_UNIT ( .MILLI., .METRE. ) );
#315 = AXIS2_PLACEMENT_3D ( 'NONE', #81, #74, #286 ) ;
#316 = EDGE_CURVE ( 'NONE', #276, #59, #198, .T. ) ;
#317 = CALENDAR_DATE ( 2020, 23, 12 ) ;
#318 = CARTESIAN_POINT ( 'NONE',  ( 3.000000000000000888, 0.000000000000000000, 0.000000000000000000 ) ) ;
#319 = LOCAL_TIME ( 9, 23, 26.00000000000000000, #187 ) ;
#320 = PERSON_AND_ORGANIZATION ( #174, #46 ) ;
#321 = CYLINDRICAL_SURFACE ( 'NONE', #82, 6.349999999999999645 ) ;
#322 = ORIENTED_EDGE ( 'NONE', *, *, #15, .F. ) ;
#323 = DIRECTION ( 'NONE',  ( 1.000000000000000000, 0.000000000000000000, 0.000000000000000000 ) ) ;
#324 = DIRECTION ( 'NONE',  ( 1.000000000000000000, 0.000000000000000000, 0.000000000000000000 ) ) ;
#325 = AXIS2_PLACEMENT_3D ( 'NONE', #219, #260, #16 ) ;
#326 = CIRCLE ( 'NONE', #146, 12.69999999999999929 ) ;
#327 = DIRECTION ( 'NONE',  ( -1.000000000000000000, -0.000000000000000000, -0.000000000000000000 ) ) ;
#328 = PLANE ( 'NONE',  #58 ) ;
#329 = EDGE_CURVE ( 'NONE', #270, #241, #53, .T. ) ;
#330 = ORIENTED_EDGE ( 'NONE', *, *, #234, .F. ) ;
#331 = CARTESIAN_POINT ( 'NONE',  ( 3.000000000000000000, 1.555301434917138433E-15, -12.69999999999999929 ) ) ;
#332 = AXIS2_PLACEMENT_3D ( 'NONE', #128, #266, #181 ) ;
#333 = DIRECTION ( 'NONE',  ( -1.000000000000000000, 0.000000000000000000, -0.000000000000000000 ) ) ;
#334 = APPLICATION_PROTOCOL_DEFINITION ( 'international standard', 'config_control_design', 1994, #268 ) ;
#335 = CYLINDRICAL_SURFACE ( 'NONE', #33, 12.69999999999999929 ) ;
ENDSEC;
END-ISO-10303-21;
